Breaking News:

Chord Gitar

Chord Kunci Gitar Night After Night Laura Marling

Chord kunci gitar Night After Night Laura Marling: Dm My darling, I loved you Bb I long to become you A And know what it is that you gave

YOUTUBE
chord kunci gitar Night After Night Laura Marling 

Chord Kunci Gitar Night After Night Laura Marling

TRIBUNJATENG.COM -  Chord kunci gitar Night After Night Laura Marling:

[Intro/Verse]
    Dm                    Bb                   A
d|-----------7--|     d|----------8---|     d|-----------------8---8--------7----7--|
A|-------8---8--|     A|-----8----8---|     A|-----7---7--------------------0----0--|
F|-------0-----0|     F|-----0--------|     F|-------8---8-------8--8---------8---8-|
D|--------------|     D|---0----0---0-|     D|--------------------------------------|
A|----0---------|     A|--------------|     A|--0------------0------------0---------|
D|-0-------0----|(x2) D|-8------------|(x2) D|7-------------7-----------7-----------|

d|-----7----7--|
A|-----0----0--|
F|-------8---8-|
D|-------------|
A|---0---------|
D|-7-----------|

Dm
My darling, I loved you
  Bb
I long to become you
    A
And know what it is that you gave
 Dm
We dance the sorrow
   Bb
Forgive me tomorrow

    F                    Gm
d|--------------|     d|----------------|
A|--------------|     A|----------------|
F|------4---4---|     F|-------5---5----|
D|------0---0---|     D|-------0---0----|
A|----0---0---0-|     A|----0----0---0--|
D|--3-----------|(x2) D|-5--------------|(x2)

      F                Gm                  F
And I pray night after night and day after day
                        Gm
Would you watch my body weaken

  Dm (Last Dm of verse only)
d|---------------------------|etc.
A|-----------------0---0-----|
F|-----0---0-------0---0-----|
D|-----0---0-----0---0---0---|
A|---0---0---0---------------|
D|-0-----------0-------------|
                   Dm
And my mind drift away?

Dm    Bb    A

Dm                 Bb                  A
Dear lover forsaken, our love is taken away
Dm                 Bb
You were my speaker, my innocence-keeper
  F                 Gm               F
I don't night after night, day after day
                        Gm
Would you watch my body weaken,
               Dm
My mind drift away?

Halaman
123
Penulis: iam
Editor: abduh imanulhaq
Sumber: Tribun Jateng
Ikuti kami di
KOMENTAR

BERITA TERKINI

© 2020 TRIBUNnews.com Network,a subsidiary of KG Media.
All Right Reserved